Guitar tabs by iCe-T olmstead@istar.ca.




Ice Planet Hell

In this song since there aren`t any real chords, you can either play only the first strings, or all of them.

BASS PART *means hold
DROP D *means hold

E|------------------------------------
B|------------------------------------
G|------------------------------------ Keep repeating
D|--0*---3*---10*---10*---------------
A|--0----3----10----10----------------
E|--0----3----10----10----------------



E|-------------------------------------
B|-------------------------------------
G|------------------------------------- Repeat 4 times
D|--2-2---5-2---5-5-5------------------
A|--2-2---5-2---5-5-5------------------
E|--2-2---5-2---5-5-5------------------

E|-------------------------------------
B|-------------------------------------
G|------------------------------------- Repeat 4 times
D|--0*---3*---10*---10*----------------
A|--0----3----10----10-----------------
E|--0----3----10----10-----------------

E|-------------------------------------
B|-------------------------------------
G|------------------------------------- Repeat twice
D|--2-2---5-2---5-5-5------------------
A|--2-2---5-2---5-5-5------------------
E|--2-2---5-2---5-5-5------------------

This is the part when he uses his Flanger pedal

E|--------------------------------------
B|--------------------------------------
G|-------------------------------------- Keep Repeating
D|--5*---7*---10*---5*------------------
A|--5----7----10----5-------------------
E|--5----7----10----5-------------------

E|--------------------------------------
B|--------------------------------------
G|-------------------------------------- Repeat 4 times
D|--0*---3*---10*---10*-----------------
A|--0----3----10----10------------------
E|--0----3----10----10------------------





Starfucker Love

E|-----------------------------------------------------
B|-----------------------------------------------------
G|-3--3--3---3--3--3---3--3--3---3--3--3-|-5--5--------
D|-4--4--4---4--4--4---4--4--4---4--4--4-|-5--5-------- Repeat 4 times
A|-4--4--4---4--4--4---4--4--4---4--4--4-|-3--3--------
E|-2--0--0---2--0--0---2--0--0---2--0--0-|-------------

E|-2--2--2--2---2--2--2--2---2--2--2--2---2--2--2--2-|-5--5-
B|-2--2--2--2---2--2--2--2---2--2--2--2---2--2--2--2-|-5--5-
G|-2--2--2--2---2--2--2--2---2--2--2--2---2--2--2--2-|-3--3-
D|-2--2--2--2---2--2--2--2---2--2--2--2---2--2--2--2-|------
A|----------------------------------------------------------
E|----------------------------------------------------------

E|-----------------------------------------------------
B|-----------------------------------------------------
G|-3--3--3---3--3--3---3--3--3---3--3--3-|-5--5--------
D|-4--4--4---4--4--4---4--4--4---4--4--4-|-5--5-------- Repeat 4 times
A|-4--4--4---4--4--4---4--4--4---4--4--4-|-3--3--------
E|-2--0--0---2--0--0---2--0--0---2--0--0-|-------------

When Reeka says "yes sir" (or whatever it is)

E|-----------------------------------------------------
B|-----------------------------------------------------
G|-5---|---4--4---4-4---4-4---4------------------------
D|-5---|---4--4---4-4---4-4---4------------------------ Repeat 4 times
A|-3---|---2--2---2-2---2-2---2------------------------
E|-----|-----------------------------------------------

E|-----------------------------------------------------
B|-----------------------------------------------------
G|-3--3--3---3--3--3---3--3--3---3--3--3-|-5--5--------
D|-4--4--4---4--4--4---4--4--4---4--4--4-|-5--5-------- Repeat 4 times
A|-4--4--4---4--4--4---4--4--4---4--4--4-|-3--3--------
E|-2--0--0---2--0--0---2--0--0---2--0--0-|-------------

CHORUS (I think) The notes with } on the end are supposed to be all together, I just couldn`t fit them all on the same line.

E|----------------------------------------------------}
B|----------------------------------------------------}
G|-7--7--7---7-7---7-7---7-7-7-7----------------------}
D|-7--7--7---7-7---7-7---7-7-7-7----------------------}
A|-5--5--5---5-5---5-5---5-5-5-5----------------------}
E|----------------------------------------------------}

E|----------------------------------------------------}
B|-1--1--1---1-1---1-1---1-1-1-1----------------------}
G|-2--2--2---2-2---2-2---2-2-2-2----------------------}
D|-2--2--2---2-2---2-2---2-2-2-2----------------------}
A|----------------------------------------------------}
E|----------------------------------------------------}

E|----------------------------------------------------}
B|----------------------------------------------------}
G|----------------------------------------------------}
D|-2--2--2---2-2---2-2---2-2-2-2----------------------}
A|-2--2--2---2-2---2-2---2-2-2-2----------------------}
E|-----------------------------------------------
E|----------------------------------------------------}
B|-1--1--1---1-1---1-1---1-1-1-1----------------------}
G|-2--2--2---2-2---2-2---2-2-2-2----------------------}
D|-2--2--2---2-2---2-2---2-2-2-2----------------------}
A|----------------------------------------------------} Repeat 4 times
E|----------------------------------------------------}

E|----------------------------------------------------
B|----------------------------------------------------
G|-5---|---4--4---4-4---4-4---4-----------------------
D|-5---|---4--4---4-4---4-4---4-----------------------
A|-3---|---2--2---2-2---2-2---2----------------------- Play only once
E|----------------------------------------------------

BRIDGE

E|----------------------------------------------------
B|----------------------------------------------------
G|-----3-3-------4-4-------3-3-------5-5-5------------
D|-----4-4-------5-5-------4-4-------5-5-5------------
A|-----4-4-------5-5-------4-4-------3-3-3------------
E|-0---2-2---0---3-3---0---2-2---0--------------------





Little Prince

E|-----------------------------------------------------|---3-----
B|-----------------------------------------------------|-3---3---
G|--7---|--3---|--0---|--5---|--7---|--3---|-----------|--------- Repeat
D|--6---|--2---|------|--4---|--6---|--2---|-----------|---------
A|--7---|--3---|--2---|--5---|--7---|--3---|----2---2--|---------
E|------|------|--3---|------|------|------|--3-----3--| --------

Chorus

E|-----------------------------------------------------------2-----
B|------------------------------5-------5------3--------3----2-----
G|------5-----------7--9------7--------7-----3--------2------2-----
D|----4-----------7---------6--------6-----2--------0--------2-----
A|--5------5----8---------7--------7-----3--------2----------------
E|-----------------------------------------------------------------

SOLO ^= a hammer-on *=hold

E|-----7---|---8--7--8--7---|---5----------------------------------
B|---------|----------------|-----5---8--3-------------------------
G|-----------------------------------------------------------------
D|-----------------------------------------------------------------
A|-----------------------------------------------------------------
E|---0-------------------------------------------------------------

E|--------------|---7--8--7---|--7----------|----------------------
B|---3-3--3^5----|-------------|----5--3-----|---0---5-------------
G|---------------|-------------|-------------|---------------------
D|---------------|-------------|-------------|---------------------
A|---------------|-------------|-------------|---------------------
E|---------------|---0---------|-------------|---------------------

E|-----------------------------------------------------------------
B|-----------------------------------------------------------------
G|-----------------------------------------------------------------
D|-------------------------------------------------------------9*--
A|---7--9--10---|---9--7--7---|---5---|---7---|---7--10--9--10-----
E|-----------------------------------------------------------------





Freedom of Choice

E|------------------------------------------------------------------------
B|------------------------------------------------------------------------
G|--2-2-2--|--4-4-4-4--4-4-4-4--|--2-2-2-2--2-2-2-2--|--4-4-4-4--4-4-4-4-|
D|--3-3-3--|--5-5-5-5--5-5-5-5--|--3-3-3-3--3-3-3-3--|--5-5-5-5--5-5-5-5-|
A|--3-3-3--|--5-5-5-5--5-5-5-5--|--3-3-3-3--3-3-3-3--|--5-5-5-5--5-5-5-5-|
E|--1-1-1--|--3-3-3-3--3-3-3-3--|--1-1-1-1--1-1-1-1--|--3-3-3-3--3-3-3-3-|

E|---------------------------------------------------------------------
B|---------------------------------------------------------------------
G|--7-7-7-7--7-7-7-7--|--5-5-5-5--5-5-5-5--|--7-7-7-7--7-7-7-7--|--5--|
D|--8-8-8-8--8-8-8-8--|--5-5-5-5--5-5-5-5--|--7-7-7-7--7-7-7-7--|--5--|
A|--8-8-8-8--8-8-8-8--|--3-3-3-3--3-3-3-3--|--5-5-5-5--5-5-5-5--|--3--|
E|--6-6-6-6--6-6-6-6--|--------------------|--------------------|-----|

VERSE

E|--------------
B|--------------
G|--2-2-2---4--|
D|--3-3-3---5--| Repeat 3 times
A|--3-3-3---5--|
E|--1-1-1---3--|

BRIDGE

E|------------------------------------------
B|------------------------------------------
G|--8-8-8-8--8-8-8-8--|--3-3-3-3--3-3-3-3--|
D|--8-8-8-8--8-8-8-8--|--4-4-4-4--4-4-4-4--| Repeat 3 times
A|--6-6-6-6--6-6-6-6--|--4-4-4-4--4-4-4-4--|
E|--------------------|--2-2-2-2--2-2-2-2--|

The squiggly brackets mean that when you repeat the second line, you include the first line.


E|--------------------------------------------------}
B|--------------------------------------------------}
G|--8-8-8-8--8-8-8-8-|-7-7-7-7--7-7-7-7--7-7-7-7--7-} Repeat once
D|--8-8-8-8--8-8-8-8-|-7-7-7-7--7-7-7-7--7-7-7-7--7-}
A|--6-6-6-6--6-6-6-6-|-5-5-5-5--5-5-5-5--5-5-5-5--5-}
E|-------------------|------------------------------}

E|---------------------------------------}
B|---------------------------------------}
G|--5-5-5-|-7-7-7-7--7-7-7-7--7-7-7-7--7-}
D|--5-5-5-|-7-7-7-7--7-7-7-7--7-7-7-7--7-} Repeat twice
A|--3-3-3-|-5-5-5-5--5-5-5-5--5-5-5-5--5-}
E|--------|------------------------------}

E|--------------
B|--------------
G|--2-2-2---4--|
D|--3-3-3---5--| Repeat 4 times
A|--3-3-3---5--|
E|--1-1-1---3--|

SOLO *means hold

E|----------------------------------------|
B|----------------------------------------|
G|----------------------------------------|
D|-------------3--3--3--3--3--2--3--2--5*-|
A|---------5------------------------------|
E|---3--6---------------------------------|

E|-------------------------------------------|
B|-------------------------------------------|
G|-------------------------------------------|
D|------------3--3--3--3--3---2--3--2--------|
A|---------5---------------------------3--2*-|
E|---3--6------------------------------------|





What is God

DROP D *means hold

E|---------------------------------
B|---------------------------------
G|--------------------------------- Repeat 3 times
D|---------------------------------
A|--9*----9-10*----10-9*----9-5*---
E|--0-----0-0------0--0-----0-0 ---

E|---------------------------------
B|---------------------------------
G|--------------------------------- Only play once
D|----------------------|---7------
A|--5-9----9-7----7-5---|---7------
E|--0-0----0-0----0-0---|---5------

VERSE

E|-----------------------------------------------------
B|-----------------------------------------------------
G|-----------------------------------------------------
D|----------------------------------------------------- Repeat 3 times
A|--9---9-10---10-9---9-5-|-5-12---12-10---10-9---9-5--
E|--0---0-0----0--0---0-0-|-0-0----0--0----0--0---0-0--

E|-----------------------------------------------------
B|-----------------------------------------------------
G|-----------------------------------------------------
D|-----------------------------------------------------
A|--9---9-10---10-9---9-5--|--9---9-7---7-5------------
E|--0---0-0----0--0---0-0--|--0---0-0---0-0------------

E|-----------------------------------------------------
B|-----------------------------------------------------
G|----------------------------------------------------- Repeat 8 times
D|--2--2--2---2-2-2------------------------------------
A|--2--2--2---2-2-2------------------------------------
E|--2--2--2---2-2-2------------------------------------

I don`t know how many times to repeat this one, you`ll just have to play with the tape to find out.

E|--------------------------------------------------------
B|--------------------------------------------------------
G|--------------------------------------------------------
D|--5-5-5-5---5-5-5-5-------------------------------------
A|--5-5-5-5---5-5-5-5-------------------------------------
E|--5-5-5-5---5-5-5-5-------------------------------------





Barcelona

The star means hold it for a while

E|--------------------------------------------------
B|--------------------------------------------------
G|--------------------------------------------------
D|--------------------------------------------------
A|--------------------------------------------------
E|---3*---5--6---2*--------------------------------- Repeat a number of times

E|--------------------------------------------------
B|--------------------------------------------------
G|----4--6--7*------9--7--6-------------------------
D|--------------------------------------------------
A|--------------------------------------------------
E|--------------------------------------------------

CHORUS

E|------------------------------------------------------
B|------------------------------------------------------
G|-9--9--9--9---9--9--9--9-|-7--7--7--7---7--7--7--7----
D|-9--9--9--9---9--9--9--9-|-7--7--7--7---7--7--7--7----
A|-7--7--7--7---7--7--7--7-|-5--5--5--5---5--5--5--5----
E|------------------------------------------------------

E|------------------------------------------------------
B|------------------------------------------------------
G|-6--6--6--6---6--6--6--6-|-7--7--7--7-----------------
D|-7--7--7--7---7--7--7--7-|-7--7--7--7-----------------
A|-7--7--7--7---7--7--7--7-|-5--5--5--5-----------------
E|-5--5--5--5---5--5--5--5-|----------------------------

(fast)

E|------------------------------------------------------
B|------------------------------------------------------
G|-8--8--8--8---8--8--8--8------------------------------
D|-8--8--8--8---8--8--8--8------------------------------
A|-6--6--6--6---6--6--6--6------------------------------
E|------------------------------------------------------